ISO-10303-21;
HEADER;
FILE_DESCRIPTION (( 'STEP AP203' ),
    '1' );
FILE_NAME ('Q-OZHWP-R2-20-852-M.STEP',
    '2020-12-22T09:17:24',
    ( '' ),
    ( '' ),
    'SwSTEP 2.0',
    'SolidWorks 2020',
    '' );
FILE_SCHEMA (( 'CONFIG_CONTROL_DESIGN' ));
ENDSEC;

DATA;
#1 = ORIENTED_EDGE ( 'NONE', *, *, #155, .T. ) ;
#2 = EDGE_CURVE ( 'NONE', #179, #283, #254, .T. ) ;
#3 = ORIENTED_EDGE ( 'NONE', *, *, #164, .F. ) ;
#4 = ORIENTED_EDGE ( 'NONE', *, *, #61, .F. ) ;
#5 = APPROVAL_STATUS ( 'not_yet_approved' ) ;
#6 = DIRECTION ( 'NONE',  ( -1.000000000000000000, 0.000000000000000000, -0.000000000000000000 ) ) ;
#7 = ORIENTED_EDGE ( 'NONE', *, *, #253, .T. ) ;
#8 = DATE_AND_TIME ( #59, #230 ) ;
#9 = DIRECTION ( 'NONE',  ( -1.000000000000000000, -0.000000000000000000, -0.000000000000000000 ) ) ;
#10 = CARTESIAN_POINT ( 'NONE',  ( 2.500000000000000888, 0.000000000000000000, 0.000000000000000000 ) ) ;
#11 = APPLICATION_PROTOCOL_DEFINITION ( 'international standard', 'config_control_design', 1994, #228 ) ;
#12 = VECTOR ( 'NONE', #221, 1000.000000000000000 ) ;
#13 = PLANE ( 'NONE',  #69 ) ;
#14 = COORDINATED_UNIVERSAL_TIME_OFFSET ( 8, 0, .AHEAD. ) ;
#15 = CARTESIAN_POINT ( 'NONE',  ( -2.500000000000000444, 0.000000000000000000, 10.00000000000000000 ) ) ;
#16 = CARTESIAN_POINT ( 'NONE',  ( 2.500000000000000888, 0.000000000000000000, 10.00000000000000000 ) ) ;
#17 = CALENDAR_DATE ( 2020, 22, 12 ) ;
#18 = CC_DESIGN_APPROVAL ( #146, ( #25 ) ) ;
#19 = DIRECTION ( 'NONE',  ( 0.000000000000000000, 0.000000000000000000, 1.000000000000000000 ) ) ;
#20 = CARTESIAN_POINT ( 'NONE',  ( -3.000000000000000000, 0.000000000000000000, 0.000000000000000000 ) ) ;
#21 = CARTESIAN_POINT ( 'NONE',  ( -2.500000000000000444, 0.000000000000000000, 0.000000000000000000 ) ) ;
#22 = APPROVAL_PERSON_ORGANIZATION ( #136, #279, #193 ) ;
#23 = ORIENTED_EDGE ( 'NONE', *, *, #297, .F. ) ;
#24 = ORIENTED_EDGE ( 'NONE', *, *, #329, .F. ) ;
#25 = PRODUCT_DEFINITION_FORMATION_WITH_SPECIFIED_SOURCE ( 'ANY', '', #184, .NOT_KNOWN. ) ;
#26 = EDGE_CURVE ( 'NONE', #99, #72, #76, .T. ) ;
#27 = VERTEX_POINT ( 'NONE', #104 ) ;
#28 = ORIENTED_EDGE ( 'NONE', *, *, #329, .T. ) ;
#29 = DIRECTION ( 'NONE',  ( -1.000000000000000000, -0.000000000000000000, -0.000000000000000000 ) ) ;
#30 = LINE ( 'NONE', #81, #95 ) ;
#31 = VERTEX_POINT ( 'NONE', #196 ) ;
#32 = PERSON_AND_ORGANIZATION ( #205, #266 ) ;
#33 =( GEOMETRIC_REPRESENTATION_CONTEXT ( 3 ) GLOBAL_UNCERTAINTY_ASSIGNED_CONTEXT ( ( #53 ) ) GLOBAL_UNIT_ASSIGNED_CONTEXT ( ( #162, #320, #157 ) ) REPRESENTATION_CONTEXT ( 'NONE', 'WORKASPACE' ) );
#34 = FACE_OUTER_BOUND ( 'NONE', #309, .T. ) ;
#35 = CC_DESIGN_PERSON_AND_ORGANIZATION_ASSIGNMENT ( #32, #239, ( #184 ) ) ;
#36 = PERSON_AND_ORGANIZATION ( #205, #266 ) ;
#37 = CARTESIAN_POINT ( 'NONE',  ( -1.614212418857619014, 0.000000000000000000, 0.000000000000000000 ) ) ;
#38 = CARTESIAN_POINT ( 'NONE',  ( 3.000000000000000000, 0.000000000000000000, 12.69999999999999929 ) ) ;
#39 = PERSON_AND_ORGANIZATION_ROLE ( 'classification_officer' ) ;
#40 = EDGE_CURVE ( 'NONE', #101, #27, #222, .T. ) ;
#41 = AXIS2_PLACEMENT_3D ( 'NONE', #202, #223, #324 ) ;
#42 = FACE_OUTER_BOUND ( 'NONE', #100, .T. ) ;
#43 = CARTESIAN_POINT ( 'NONE',  ( -2.500000000000000444, 1.224646799147353256E-15, -10.00000000000000000 ) ) ;
#44 = DIRECTION ( 'NONE',  ( 0.000000000000000000, 0.000000000000000000, 1.000000000000000000 ) ) ;
#45 = CIRCLE ( 'NONE', #235, 12.69999999999999929 ) ;
#46 = FACE_BOUND ( 'NONE', #287, .T. ) ;
#47 = EDGE_CURVE ( 'NONE', #31, #206, #259, .T. ) ;
#48 = DIRECTION ( 'NONE',  ( -1.000000000000000000, -0.000000000000000000, -0.000000000000000000 ) ) ;
#49 = AXIS2_PLACEMENT_3D ( 'NONE', #217, #160, #78 ) ;
#50 = ADVANCED_FACE ( 'NONE', ( #311, #294 ), #271, .F. ) ;
#51 = ORIENTED_EDGE ( 'NONE', *, *, #170, .F. ) ;
#52 = AXIS2_PLACEMENT_3D ( 'NONE', #247, #120, #66 ) ;
#53 = UNCERTAINTY_MEASURE_WITH_UNIT (LENGTH_MEASURE( 1.000000000000000082E-05 ), #162, 'distance_accuracy_value', 'NONE');
#54 = ORIENTED_EDGE ( 'NONE', *, *, #180, .F. ) ;
#55 = DIRECTION ( 'NONE',  ( 0.000000000000000000, 0.000000000000000000, 1.000000000000000000 ) ) ;
#56 = DIRECTION ( 'NONE',  ( -1.000000000000000000, -0.000000000000000000, -0.000000000000000000 ) ) ;
#57 = ORIENTED_EDGE ( 'NONE', *, *, #263, .F. ) ;
#58 = DIRECTION ( 'NONE',  ( -1.000000000000000000, -0.000000000000000000, -0.000000000000000000 ) ) ;
#59 = CALENDAR_DATE ( 2020, 22, 12 ) ;
#60 = CARTESIAN_POINT ( 'NONE',  ( -3.000000000000000000, 0.000000000000000000, 0.000000000000000000 ) ) ;
#61 = EDGE_CURVE ( 'NONE', #72, #285, #30, .T. ) ;
#62 = DATE_TIME_ROLE ( 'creation_date' ) ;
#63 = DIRECTION ( 'NONE',  ( -1.000000000000000000, -0.000000000000000000, -0.000000000000000000 ) ) ;
#64 = VECTOR ( 'NONE', #48, 1000.000000000000000 ) ;
#65 = PLANE ( 'NONE',  #291 ) ;
#66 = DIRECTION ( 'NONE',  ( 0.000000000000000000, 0.000000000000000000, 1.000000000000000000 ) ) ;
#67 = CALENDAR_DATE ( 2020, 22, 12 ) ;
#68 = DIRECTION ( 'NONE',  ( -1.000000000000000000, -0.000000000000000000, -0.000000000000000000 ) ) ;
#69 = AXIS2_PLACEMENT_3D ( 'NONE', #216, #6, #115 ) ;
#70 = DIRECTION ( 'NONE',  ( -1.000000000000000000, -0.000000000000000000, -0.000000000000000000 ) ) ;
#71 = CC_DESIGN_APPROVAL ( #279, ( #305 ) ) ;
#72 = VERTEX_POINT ( 'NONE', #38 ) ;
#73 = ADVANCED_FACE ( 'NONE', ( #42 ), #13, .F. ) ;
#74 = ORIENTED_EDGE ( 'NONE', *, *, #253, .F. ) ;
#75 = ORIENTED_EDGE ( 'NONE', *, *, #47, .T. ) ;
#76 = CIRCLE ( 'NONE', #277, 12.69999999999999929 ) ;
#77 = ORIENTED_EDGE ( 'NONE', *, *, #40, .F. ) ;
#78 = DIRECTION ( 'NONE',  ( 1.000000000000000000, 0.000000000000000000, 0.000000000000000000 ) ) ;
#79 = DIRECTION ( 'NONE',  ( -1.000000000000000000, 0.000000000000000000, -0.000000000000000000 ) ) ;
#80 = EDGE_LOOP ( 'NONE', ( #265, #282 ) ) ;
#81 = CARTESIAN_POINT ( 'NONE',  ( -1.614212418857619014, 0.000000000000000000, 12.69999999999999929 ) ) ;
#82 = LOCAL_TIME ( 17, 17, 24.00000000000000000, #212 ) ;
#83 = ADVANCED_FACE ( 'NONE', ( #288 ), #168, .F. ) ;
#84 = DIRECTION ( 'NONE',  ( -1.000000000000000000, -0.000000000000000000, -0.000000000000000000 ) ) ;
#85 = PERSON_AND_ORGANIZATION ( #205, #266 ) ;
#86 = CARTESIAN_POINT ( 'NONE',  ( 2.999999999999999112, 12.69999999999999929, 0.000000000000000000 ) ) ;
#87 = APPROVAL_STATUS ( 'not_yet_approved' ) ;
#88 = PLANE ( 'NONE',  #303 ) ;
#89 = MANIFOLD_SOLID_BREP ( 'Ðý×', #119 ) ;
#90 = AXIS2_PLACEMENT_3D ( 'NONE', #163, #166, #241 ) ;
#91 = CARTESIAN_POINT ( 'NONE',  ( 2.999999999999999112, 0.000000000000000000, 10.00000000000000000 ) ) ;
#92 = ADVANCED_FACE ( 'NONE', ( #245 ), #139, .F. ) ;
#93 = DIRECTION ( 'NONE',  ( 0.000000000000000000, 0.000000000000000000, -1.000000000000000000 ) ) ;
#94 = LINE ( 'NONE', #276, #210 ) ;
#95 = VECTOR ( 'NONE', #9, 1000.000000000000000 ) ;
#96 = APPROVAL ( #87, 'UNSPECIFIED' ) ;
#97 = CIRCLE ( 'NONE', #102, 10.00000000000000000 ) ;
#98 = ORIENTED_EDGE ( 'NONE', *, *, #302, .F. ) ;
#99 = VERTEX_POINT ( 'NONE', #107 ) ;
#100 = EDGE_LOOP ( 'NONE', ( #152, #154 ) ) ;
#101 = VERTEX_POINT ( 'NONE', #15 ) ;
#102 = AXIS2_PLACEMENT_3D ( 'NONE', #123, #147, #246 ) ;
#103 = APPROVAL_ROLE ( '' ) ;
#104 = CARTESIAN_POINT ( 'NONE',  ( -3.000000000000000444, 0.000000000000000000, 10.00000000000000000 ) ) ;
#105 = EDGE_LOOP ( 'NONE', ( #74, #3, #134, #256 ) ) ;
#106 = DATE_AND_TIME ( #310, #82 ) ;
#107 = CARTESIAN_POINT ( 'NONE',  ( 3.000000000000000000, 1.555301434917138433E-15, -12.69999999999999929 ) ) ;
#108 = PERSON_AND_ORGANIZATION_ROLE ( 'creator' ) ;
#109 = EDGE_CURVE ( 'NONE', #229, #101, #272, .T. ) ;
#110 = DIRECTION ( 'NONE',  ( -1.000000000000000000, -0.000000000000000000, -0.000000000000000000 ) ) ;
#111 = APPROVAL_STATUS ( 'not_yet_approved' ) ;
#112 = AXIS2_PLACEMENT_3D ( 'NONE', #319, #58, #141 ) ;
#113 = CARTESIAN_POINT ( 'NONE',  ( -1.614212418857619014, 0.000000000000000000, 0.000000000000000000 ) ) ;
#114 = PERSON_AND_ORGANIZATION ( #205, #266 ) ;
#115 = DIRECTION ( 'NONE',  ( -0.000000000000000000, 0.000000000000000000, 1.000000000000000000 ) ) ;
#116 = CARTESIAN_POINT ( 'NONE',  ( -3.000000000000000444, 1.224646799147353256E-15, -10.00000000000000000 ) ) ;
#117 = DATE_TIME_ROLE ( 'classification_date' ) ;
#118 = AXIS2_PLACEMENT_3D ( 'NONE', #60, #110, #44 ) ;
#119 = CLOSED_SHELL ( 'NONE', ( #322, #92, #83, #73, #333, #286, #274, #130, #50, #122 ) ) ;
#120 = DIRECTION ( 'NONE',  ( -1.000000000000000000, -0.000000000000000000, -0.000000000000000000 ) ) ;
#121 = DIRECTION ( 'NONE',  ( 0.000000000000000000, 0.000000000000000000, 1.000000000000000000 ) ) ;
#122 = ADVANCED_FACE ( 'NONE', ( #34 ), #88, .F. ) ;
#123 = CARTESIAN_POINT ( 'NONE',  ( -3.000000000000000444, 0.000000000000000000, 0.000000000000000000 ) ) ;
#124 = AXIS2_PLACEMENT_3D ( 'NONE', #10, #56, #269 ) ;
#125 = ORIENTED_EDGE ( 'NONE', *, *, #2, .T. ) ;
#126 = PRODUCT_RELATED_PRODUCT_CATEGORY ( 'detail', '', ( #184 ) ) ;
#127 = VECTOR ( 'NONE', #321, 1000.000000000000000 ) ;
#128 = EDGE_LOOP ( 'NONE', ( #214, #125 ) ) ;
#129 = ORIENTED_EDGE ( 'NONE', *, *, #180, .T. ) ;
#130 = ADVANCED_FACE ( 'NONE', ( #313 ), #133, .T. ) ;
#131 = EDGE_LOOP ( 'NONE', ( #23, #261 ) ) ;
#132 = CARTESIAN_POINT ( 'NONE',  ( -1.614212418857619014, 0.000000000000000000, 0.000000000000000000 ) ) ;
#133 = CYLINDRICAL_SURFACE ( 'NONE', #203, 12.69999999999999929 ) ;
#134 = ORIENTED_EDGE ( 'NONE', *, *, #197, .T. ) ;
#135 = AXIS2_PLACEMENT_3D ( 'NONE', #21, #200, #227 ) ;
#136 = PERSON_AND_ORGANIZATION ( #205, #266 ) ;
#137 = LINE ( 'NONE', #295, #12 ) ;
#138 = CYLINDRICAL_SURFACE ( 'NONE', #248, 10.00000000000000000 ) ;
#139 = CYLINDRICAL_SURFACE ( 'NONE', #182, 10.00000000000000000 ) ;
#140 = CC_DESIGN_PERSON_AND_ORGANIZATION_ASSIGNMENT ( #36, #39, ( #243 ) ) ;
#141 = DIRECTION ( 'NONE',  ( 0.000000000000000000, 0.000000000000000000, 1.000000000000000000 ) ) ;
#142 = FACE_OUTER_BOUND ( 'NONE', #105, .T. ) ;
#143 = CIRCLE ( 'NONE', #118, 12.69999999999999929 ) ;
#144 = LOCAL_TIME ( 17, 17, 24.00000000000000000, #300 ) ;
#145 = CARTESIAN_POINT ( 'NONE',  ( 3.000000000000000000, 0.000000000000000000, 0.000000000000000000 ) ) ;
#146 = APPROVAL ( #5, 'UNSPECIFIED' ) ;
#147 = DIRECTION ( 'NONE',  ( -1.000000000000000000, -0.000000000000000000, -0.000000000000000000 ) ) ;
#148 = CARTESIAN_POINT ( 'NONE',  ( -1.614212418857619014, 0.000000000000000000, 0.000000000000000000 ) ) ;
#149 = AXIS2_PLACEMENT_3D ( 'NONE', #158, #264, #240 ) ;
#150 = DIRECTION ( 'NONE',  ( -1.000000000000000000, -0.000000000000000000, -0.000000000000000000 ) ) ;
#151 = DIRECTION ( 'NONE',  ( 1.000000000000000000, 0.000000000000000000, 0.000000000000000000 ) ) ;
#152 = ORIENTED_EDGE ( 'NONE', *, *, #249, .F. ) ;
#153 = AXIS2_PLACEMENT_3D ( 'NONE', #242, #213, #187 ) ;
#154 = ORIENTED_EDGE ( 'NONE', *, *, #47, .F. ) ;
#155 = EDGE_CURVE ( 'NONE', #99, #232, #137, .T. ) ;
#156 = ORIENTED_EDGE ( 'NONE', *, *, #316, .T. ) ;
#157 =( NAMED_UNIT ( * ) SI_UNIT ( $, .STERADIAN. ) SOLID_ANGLE_UNIT ( ) );
#158 = CARTESIAN_POINT ( 'NONE',  ( 2.999999999999999112, 0.000000000000000000, 0.000000000000000000 ) ) ;
#159 = ADVANCED_BREP_SHAPE_REPRESENTATION ( 'Q-OZHWP-R2-20-852-M', ( #89, #49 ), #33 ) ;
#160 = DIRECTION ( 'NONE',  ( 0.000000000000000000, 0.000000000000000000, 1.000000000000000000 ) ) ;
#161 = DIRECTION ( 'NONE',  ( 0.000000000000000000, 0.000000000000000000, 1.000000000000000000 ) ) ;
#162 =( LENGTH_UNIT ( ) NAMED_UNIT ( * ) SI_UNIT ( .MILLI., .METRE. ) );
#163 = CARTESIAN_POINT ( 'NONE',  ( 2.999999999999999112, 0.000000000000000000, 0.000000000000000000 ) ) ;
#164 = EDGE_CURVE ( 'NONE', #283, #179, #284, .T. ) ;
#165 = PERSON_AND_ORGANIZATION ( #205, #266 ) ;
#166 = DIRECTION ( 'NONE',  ( -1.000000000000000000, -0.000000000000000000, -0.000000000000000000 ) ) ;
#167 = APPLICATION_PROTOCOL_DEFINITION ( 'international standard', 'config_control_design', 1994, #281 ) ;
#168 = CYLINDRICAL_SURFACE ( 'NONE', #112, 10.00000000000000000 ) ;
#169 = VECTOR ( 'NONE', #186, 1000.000000000000000 ) ;
#170 = EDGE_CURVE ( 'NONE', #232, #285, #143, .T. ) ;
#171 = DIRECTION ( 'NONE',  ( -1.000000000000000000, -0.000000000000000000, -0.000000000000000000 ) ) ;
#172 = CARTESIAN_POINT ( 'NONE',  ( -3.000000000000000000, 10.00000000000000000, 0.000000000000000000 ) ) ;
#173 = CARTESIAN_POINT ( 'NONE',  ( -3.000000000000000000, 0.000000000000000000, 12.69999999999999929 ) ) ;
#174 = APPROVAL_DATE_TIME ( #323, #96 ) ;
#175 = CIRCLE ( 'NONE', #41, 10.00000000000000000 ) ;
#176 = CARTESIAN_POINT ( 'NONE',  ( -3.000000000000000000, 1.555301434917138433E-15, -12.69999999999999929 ) ) ;
#177 = CC_DESIGN_DATE_AND_TIME_ASSIGNMENT ( #326, #117, ( #243 ) ) ;
#178 = AXIS2_PLACEMENT_3D ( 'NONE', #20, #278, #19 ) ;
#179 = VERTEX_POINT ( 'NONE', #327 ) ;
#180 = EDGE_CURVE ( 'NONE', #101, #229, #315, .T. ) ;
#181 = ORIENTED_EDGE ( 'NONE', *, *, #197, .F. ) ;
#182 = AXIS2_PLACEMENT_3D ( 'NONE', #37, #84, #194 ) ;
#183 = ORIENTED_EDGE ( 'NONE', *, *, #26, .T. ) ;
#184 = PRODUCT ( 'Q-OZHWP-R2-20-852-M', 'Q-OZHWP-R2-20-852-M', '', ( #195 ) ) ;
#185 = ORIENTED_EDGE ( 'NONE', *, *, #61, .T. ) ;
#186 = DIRECTION ( 'NONE',  ( -1.000000000000000000, -0.000000000000000000, -0.000000000000000000 ) ) ;
#187 = DIRECTION ( 'NONE',  ( 0.000000000000000000, 0.000000000000000000, -1.000000000000000000 ) ) ;
#188 = ORIENTED_EDGE ( 'NONE', *, *, #263, .T. ) ;
#189 = APPROVAL_DATE_TIME ( #106, #146 ) ;
#190 = CC_DESIGN_PERSON_AND_ORGANIZATION_ASSIGNMENT ( #234, #108, ( #305 ) ) ;
#191 = CIRCLE ( 'NONE', #280, 10.00000000000000000 ) ;
#192 = APPROVAL_PERSON_ORGANIZATION ( #225, #96, #201 ) ;
#193 = APPROVAL_ROLE ( '' ) ;
#194 = DIRECTION ( 'NONE',  ( 0.000000000000000000, 0.000000000000000000, 1.000000000000000000 ) ) ;
#195 = MECHANICAL_CONTEXT ( 'NONE', #281, 'mechanical' ) ;
#196 = CARTESIAN_POINT ( 'NONE',  ( 2.500000000000000888, 1.224646799147353256E-15, -10.00000000000000000 ) ) ;
#197 = EDGE_CURVE ( 'NONE', #283, #206, #299, .T. ) ;
#198 = DIRECTION ( 'NONE',  ( 0.000000000000000000, 0.000000000000000000, 1.000000000000000000 ) ) ;
#199 = CARTESIAN_POINT ( 'NONE',  ( -3.000000000000000444, 0.000000000000000000, 0.000000000000000000 ) ) ;
#200 = DIRECTION ( 'NONE',  ( 1.000000000000000000, 0.000000000000000000, 0.000000000000000000 ) ) ;
#201 = APPROVAL_ROLE ( '' ) ;
#202 = CARTESIAN_POINT ( 'NONE',  ( 2.500000000000000888, 0.000000000000000000, 0.000000000000000000 ) ) ;
#203 = AXIS2_PLACEMENT_3D ( 'NONE', #113, #268, #198 ) ;
#204 = CC_DESIGN_DATE_AND_TIME_ASSIGNMENT ( #8, #62, ( #305 ) ) ;
#205 = PERSON ( 'UNSPECIFIED', 'UNSPECIFIED', 'UNSPECIFIED', ('UNSPECIFIED'), ('UNSPECIFIED'), ('UNSPECIFIED') ) ;
#206 = VERTEX_POINT ( 'NONE', #16 ) ;
#207 = DESIGN_CONTEXT ( 'detailed design', #228, 'design' ) ;
#208 = VERTEX_POINT ( 'NONE', #116 ) ;
#209 = ORIENTED_EDGE ( 'NONE', *, *, #40, .T. ) ;
#210 = VECTOR ( 'NONE', #68, 1000.000000000000000 ) ;
#211 = ORIENTED_EDGE ( 'NONE', *, *, #316, .F. ) ;
#212 = COORDINATED_UNIVERSAL_TIME_OFFSET ( 8, 0, .AHEAD. ) ;
#213 = DIRECTION ( 'NONE',  ( 1.000000000000000000, 0.000000000000000000, 0.000000000000000000 ) ) ;
#214 = ORIENTED_EDGE ( 'NONE', *, *, #164, .T. ) ;
#215 = COORDINATED_UNIVERSAL_TIME_OFFSET ( 8, 0, .AHEAD. ) ;
#216 = CARTESIAN_POINT ( 'NONE',  ( 2.500000000000000444, 10.00000000000000000, 0.000000000000000000 ) ) ;
#217 = CARTESIAN_POINT ( 'NONE',  ( 0.000000000000000000, 0.000000000000000000, 0.000000000000000000 ) ) ;
#218 = CARTESIAN_POINT ( 'NONE',  ( -1.614212418857619014, 0.000000000000000000, 10.00000000000000000 ) ) ;
#219 = LOCAL_TIME ( 17, 17, 24.00000000000000000, #14 ) ;
#220 = CALENDAR_DATE ( 2020, 22, 12 ) ;
#221 = DIRECTION ( 'NONE',  ( -1.000000000000000000, -0.000000000000000000, -0.000000000000000000 ) ) ;
#222 = LINE ( 'NONE', #218, #127 ) ;
#223 = DIRECTION ( 'NONE',  ( -1.000000000000000000, -0.000000000000000000, -0.000000000000000000 ) ) ;
#224 = CYLINDRICAL_SURFACE ( 'NONE', #308, 12.69999999999999929 ) ;
#225 = PERSON_AND_ORGANIZATION ( #205, #266 ) ;
#226 = CARTESIAN_POINT ( 'NONE',  ( 3.000000000000000000, 0.000000000000000000, 0.000000000000000000 ) ) ;
#227 = DIRECTION ( 'NONE',  ( 0.000000000000000000, 0.000000000000000000, -1.000000000000000000 ) ) ;
#228 = APPLICATION_CONTEXT ( 'configuration controlled 3d designs of mechanical parts and assemblies' ) ;
#229 = VERTEX_POINT ( 'NONE', #43 ) ;
#230 = LOCAL_TIME ( 17, 17, 24.00000000000000000, #215 ) ;
#231 = EDGE_LOOP ( 'NONE', ( #289, #1, #98, #4 ) ) ;
#232 = VERTEX_POINT ( 'NONE', #176 ) ;
#233 = ORIENTED_EDGE ( 'NONE', *, *, #2, .F. ) ;
#234 = PERSON_AND_ORGANIZATION ( #205, #266 ) ;
#235 = AXIS2_PLACEMENT_3D ( 'NONE', #226, #70, #251 ) ;
#236 = DIRECTION ( 'NONE',  ( -0.000000000000000000, 0.000000000000000000, 1.000000000000000000 ) ) ;
#237 = CC_DESIGN_PERSON_AND_ORGANIZATION_ASSIGNMENT ( #114, #318, ( #25 ) ) ;
#238 = ORIENTED_EDGE ( 'NONE', *, *, #155, .F. ) ;
#239 = PERSON_AND_ORGANIZATION_ROLE ( 'design_owner' ) ;
#240 = DIRECTION ( 'NONE',  ( 0.000000000000000000, 0.000000000000000000, 1.000000000000000000 ) ) ;
#241 = DIRECTION ( 'NONE',  ( 0.000000000000000000, 0.000000000000000000, 1.000000000000000000 ) ) ;
#242 = CARTESIAN_POINT ( 'NONE',  ( -2.500000000000000444, 0.000000000000000000, 0.000000000000000000 ) ) ;
#243 = SECURITY_CLASSIFICATION ( '', '', #293 ) ;
#244 = CARTESIAN_POINT ( 'NONE',  ( -1.614212418857619014, 1.224646799147353256E-15, -10.00000000000000000 ) ) ;
#245 = FACE_OUTER_BOUND ( 'NONE', #257, .T. ) ;
#246 = DIRECTION ( 'NONE',  ( 0.000000000000000000, 0.000000000000000000, 1.000000000000000000 ) ) ;
#247 = CARTESIAN_POINT ( 'NONE',  ( -1.614212418857619014, 0.000000000000000000, 0.000000000000000000 ) ) ;
#248 = AXIS2_PLACEMENT_3D ( 'NONE', #132, #29, #55 ) ;
#249 = EDGE_CURVE ( 'NONE', #206, #31, #175, .T. ) ;
#250 = DIRECTION ( 'NONE',  ( 0.000000000000000000, 0.000000000000000000, 1.000000000000000000 ) ) ;
#251 = DIRECTION ( 'NONE',  ( 0.000000000000000000, 0.000000000000000000, 1.000000000000000000 ) ) ;
#252 = PRODUCT_DEFINITION_SHAPE ( 'NONE', 'NONE',  #305 ) ;
#253 = EDGE_CURVE ( 'NONE', #179, #31, #94, .T. ) ;
#254 = CIRCLE ( 'NONE', #90, 10.00000000000000000 ) ;
#255 = CC_DESIGN_APPROVAL ( #96, ( #243 ) ) ;
#256 = ORIENTED_EDGE ( 'NONE', *, *, #249, .T. ) ;
#257 = EDGE_LOOP ( 'NONE', ( #129, #28, #188, #77 ) ) ;
#258 = CC_DESIGN_PERSON_AND_ORGANIZATION_ASSIGNMENT ( #85, #290, ( #25 ) ) ;
#259 = CIRCLE ( 'NONE', #124, 10.00000000000000000 ) ;
#260 = ORIENTED_EDGE ( 'NONE', *, *, #109, .F. ) ;
#261 = ORIENTED_EDGE ( 'NONE', *, *, #26, .F. ) ;
#262 = COORDINATED_UNIVERSAL_TIME_OFFSET ( 8, 0, .AHEAD. ) ;
#263 = EDGE_CURVE ( 'NONE', #208, #27, #191, .T. ) ;
#264 = DIRECTION ( 'NONE',  ( -1.000000000000000000, -0.000000000000000000, -0.000000000000000000 ) ) ;
#265 = ORIENTED_EDGE ( 'NONE', *, *, #302, .T. ) ;
#266 = ORGANIZATION ( 'UNSPECIFIED', 'UNSPECIFIED', '' ) ;
#267 = DIRECTION ( 'NONE',  ( 0.000000000000000000, 0.000000000000000000, -1.000000000000000000 ) ) ;
#268 = DIRECTION ( 'NONE',  ( -1.000000000000000000, -0.000000000000000000, -0.000000000000000000 ) ) ;
#269 = DIRECTION ( 'NONE',  ( 0.000000000000000000, 0.000000000000000000, 1.000000000000000000 ) ) ;
#270 = DATE_AND_TIME ( #220, #335 ) ;
#271 = PLANE ( 'NONE',  #332 ) ;
#272 = CIRCLE ( 'NONE', #153, 10.00000000000000000 ) ;
#273 = CARTESIAN_POINT ( 'NONE',  ( -1.614212418857619014, 0.000000000000000000, 10.00000000000000000 ) ) ;
#274 = ADVANCED_FACE ( 'NONE', ( #46, #331 ), #65, .F. ) ;
#275 = FACE_OUTER_BOUND ( 'NONE', #231, .T. ) ;
#276 = CARTESIAN_POINT ( 'NONE',  ( -1.614212418857619014, 1.224646799147353256E-15, -10.00000000000000000 ) ) ;
#277 = AXIS2_PLACEMENT_3D ( 'NONE', #145, #63, #161 ) ;
#278 = DIRECTION ( 'NONE',  ( -1.000000000000000000, -0.000000000000000000, -0.000000000000000000 ) ) ;
#279 = APPROVAL ( #111, 'UNSPECIFIED' ) ;
#280 = AXIS2_PLACEMENT_3D ( 'NONE', #199, #171, #121 ) ;
#281 = APPLICATION_CONTEXT ( 'configuration controlled 3d designs of mechanical parts and assemblies' ) ;
#282 = ORIENTED_EDGE ( 'NONE', *, *, #170, .T. ) ;
#283 = VERTEX_POINT ( 'NONE', #91 ) ;
#284 = CIRCLE ( 'NONE', #149, 10.00000000000000000 ) ;
#285 = VERTEX_POINT ( 'NONE', #173 ) ;
#286 = ADVANCED_FACE ( 'NONE', ( #301 ), #298, .F. ) ;
#287 = EDGE_LOOP ( 'NONE', ( #211, #57 ) ) ;
#288 = FACE_OUTER_BOUND ( 'NONE', #306, .T. ) ;
#289 = ORIENTED_EDGE ( 'NONE', *, *, #297, .T. ) ;
#290 = PERSON_AND_ORGANIZATION_ROLE ( 'design_supplier' ) ;
#291 = AXIS2_PLACEMENT_3D ( 'NONE', #172, #151, #93 ) ;
#292 = DIRECTION ( 'NONE',  ( 1.000000000000000000, 0.000000000000000000, 0.000000000000000000 ) ) ;
#293 = SECURITY_CLASSIFICATION_LEVEL ( 'unclassified' ) ;
#294 = FACE_BOUND ( 'NONE', #128, .T. ) ;
#295 = CARTESIAN_POINT ( 'NONE',  ( -1.614212418857619014, 1.555301434917138433E-15, -12.69999999999999929 ) ) ;
#296 = CC_DESIGN_SECURITY_CLASSIFICATION ( #243, ( #25 ) ) ;
#297 = EDGE_CURVE ( 'NONE', #72, #99, #45, .T. ) ;
#298 = CYLINDRICAL_SURFACE ( 'NONE', #52, 10.00000000000000000 ) ;
#299 = LINE ( 'NONE', #273, #64 ) ;
#300 = COORDINATED_UNIVERSAL_TIME_OFFSET ( 8, 0, .AHEAD. ) ;
#301 = FACE_OUTER_BOUND ( 'NONE', #334, .T. ) ;
#302 = EDGE_CURVE ( 'NONE', #285, #232, #325, .T. ) ;
#303 = AXIS2_PLACEMENT_3D ( 'NONE', #317, #292, #267 ) ;
#304 = APPROVAL_PERSON_ORGANIZATION ( #165, #146, #103 ) ;
#305 = PRODUCT_DEFINITION ( 'UNKNOWN', '', #25, #207 ) ;
#306 = EDGE_LOOP ( 'NONE', ( #233, #7, #75, #181 ) ) ;
#307 = ORIENTED_EDGE ( 'NONE', *, *, #109, .T. ) ;
#308 = AXIS2_PLACEMENT_3D ( 'NONE', #148, #150, #250 ) ;
#309 = EDGE_LOOP ( 'NONE', ( #54, #260 ) ) ;
#310 = CALENDAR_DATE ( 2020, 22, 12 ) ;
#311 = FACE_OUTER_BOUND ( 'NONE', #131, .T. ) ;
#312 = EDGE_LOOP ( 'NONE', ( #238, #183, #185, #51 ) ) ;
#313 = FACE_OUTER_BOUND ( 'NONE', #312, .T. ) ;
#314 = APPROVAL_DATE_TIME ( #270, #279 ) ;
#315 = CIRCLE ( 'NONE', #135, 10.00000000000000000 ) ;
#316 = EDGE_CURVE ( 'NONE', #27, #208, #97, .T. ) ;
#317 = CARTESIAN_POINT ( 'NONE',  ( -2.500000000000000444, 10.00000000000000000, 0.000000000000000000 ) ) ;
#318 = PERSON_AND_ORGANIZATION_ROLE ( 'creator' ) ;
#319 = CARTESIAN_POINT ( 'NONE',  ( -1.614212418857619014, 0.000000000000000000, 0.000000000000000000 ) ) ;
#320 =( NAMED_UNIT ( * ) PLANE_ANGLE_UNIT ( ) SI_UNIT ( $, .RADIAN. ) );
#321 = DIRECTION ( 'NONE',  ( -1.000000000000000000, -0.000000000000000000, -0.000000000000000000 ) ) ;
#322 = ADVANCED_FACE ( 'NONE', ( #275 ), #224, .T. ) ;
#323 = DATE_AND_TIME ( #67, #144 ) ;
#324 = DIRECTION ( 'NONE',  ( 0.000000000000000000, 0.000000000000000000, 1.000000000000000000 ) ) ;
#325 = CIRCLE ( 'NONE', #178, 12.69999999999999929 ) ;
#326 = DATE_AND_TIME ( #17, #219 ) ;
#327 = CARTESIAN_POINT ( 'NONE',  ( 2.999999999999999112, 1.224646799147353256E-15, -10.00000000000000000 ) ) ;
#328 = SHAPE_DEFINITION_REPRESENTATION ( #252, #159 ) ;
#329 = EDGE_CURVE ( 'NONE', #229, #208, #330, .T. ) ;
#330 = LINE ( 'NONE', #244, #169 ) ;
#331 = FACE_OUTER_BOUND ( 'NONE', #80, .T. ) ;
#332 = AXIS2_PLACEMENT_3D ( 'NONE', #86, #79, #236 ) ;
#333 = ADVANCED_FACE ( 'NONE', ( #142 ), #138, .F. ) ;
#334 = EDGE_LOOP ( 'NONE', ( #24, #307, #209, #156 ) ) ;
#335 = LOCAL_TIME ( 17, 17, 24.00000000000000000, #262 ) ;
ENDSEC;
END-ISO-10303-21;
